ISO-10303-21;
HEADER;
FILE_DESCRIPTION (( 'STEP AP203' ),
    '1' );
FILE_NAME ('BK7-LPBSC-20-1064.STEP',
    '2020-12-22T03:12:37',
    ( '' ),
    ( '' ),
    'SwSTEP 2.0',
    'SolidWorks 2020',
    '' );
FILE_SCHEMA (( 'CONFIG_CONTROL_DESIGN' ));
ENDSEC;

DATA;
#1 = CALENDAR_DATE ( 2020, 22, 12 ) ;
#2 = PLANE ( 'NONE',  #90 ) ;
#3 = COORDINATED_UNIVERSAL_TIME_OFFSET ( 8, 0, .AHEAD. ) ;
#4 = PERSON_AND_ORGANIZATION ( #296, #302 ) ;
#5 = APPROVAL_STATUS ( 'not_yet_approved' ) ;
#6 = PERSON_AND_ORGANIZATION ( #296, #302 ) ;
#7 = EDGE_CURVE ( 'NONE', #136, #309, #121, .T. ) ;
#8 = LINE ( 'NONE', #126, #318 ) ;
#9 = LOCAL_TIME ( 11, 12, 37.00000000000000000, #251 ) ;
#10 = CARTESIAN_POINT ( 'NONE',  ( 10.00000000000000178, 9.999999999999998224, 10.00000000000000000 ) ) ;
#11 = CARTESIAN_POINT ( 'NONE',  ( 10.00000000000000178, 9.999999999999998224, 10.00000000000000000 ) ) ;
#12 = PRODUCT_DEFINITION ( 'UNKNOWN', '', #253, #270 ) ;
#13 = VERTEX_POINT ( 'NONE', #222 ) ;
#14 = VECTOR ( 'NONE', #170, 1000.000000000000000 ) ;
#15 = EDGE_LOOP ( 'NONE', ( #41, #18, #317 ) ) ;
#16 = CC_DESIGN_SECURITY_CLASSIFICATION ( #31, ( #253 ) ) ;
#17 = EDGE_CURVE ( 'NONE', #281, #13, #321, .T. ) ;
#18 = ORIENTED_EDGE ( 'NONE', *, *, #129, .F. ) ;
#19 = EDGE_CURVE ( 'NONE', #113, #13, #94, .T. ) ;
#20 = FACE_OUTER_BOUND ( 'NONE', #111, .T. ) ;
#21 = CARTESIAN_POINT ( 'NONE',  ( -10.00000000000000178, -9.999999999999996447, 10.00000000000000000 ) ) ;
#22 = VERTEX_POINT ( 'NONE', #193 ) ;
#23 = CC_DESIGN_APPROVAL ( #176, ( #12 ) ) ;
#24 = DATE_TIME_ROLE ( 'creation_date' ) ;
#25 = ORIENTED_EDGE ( 'NONE', *, *, #293, .F. ) ;
#26 = PERSON_AND_ORGANIZATION ( #296, #302 ) ;
#27 = EDGE_CURVE ( 'NONE', #13, #52, #97, .T. ) ;
#28 = CALENDAR_DATE ( 2020, 22, 12 ) ;
#29 = VECTOR ( 'NONE', #110, 1000.000000000000000 ) ;
#30 = CC_DESIGN_PERSON_AND_ORGANIZATION_ASSIGNMENT ( #171, #172, ( #253 ) ) ;
#31 = SECURITY_CLASSIFICATION ( '', '', #127 ) ;
#32 = ADVANCED_FACE ( 'NONE', ( #215 ), #295, .F. ) ;
#33 = CARTESIAN_POINT ( 'NONE',  ( 10.00000000000000000, 10.00000000000000000, 10.00000000000000000 ) ) ;
#34 = ADVANCED_FACE ( 'NONE', ( #140 ), #292, .F. ) ;
#35 = AXIS2_PLACEMENT_3D ( 'NONE', #167, #64, #116 ) ;
#36 = ORIENTED_EDGE ( 'NONE', *, *, #233, .F. ) ;
#37 = ADVANCED_FACE ( 'NONE', ( #224 ), #2, .T. ) ;
#38 = DIRECTION ( 'NONE',  ( -0.000000000000000000, -0.000000000000000000, -1.000000000000000000 ) ) ;
#39 = LINE ( 'NONE', #11, #203 ) ;
#40 = ADVANCED_FACE ( 'NONE', ( #20 ), #89, .F. ) ;
#41 = ORIENTED_EDGE ( 'NONE', *, *, #7, .F. ) ;
#42 = DIRECTION ( 'NONE',  ( -0.000000000000000000, 0.000000000000000000, 1.000000000000000000 ) ) ;
#43 = ORIENTED_EDGE ( 'NONE', *, *, #107, .T. ) ;
#44 = DIRECTION ( 'NONE',  ( 1.000000000000000000, 0.000000000000000000, 0.000000000000000000 ) ) ;
#45 = CARTESIAN_POINT ( 'NONE',  ( -9.999999999999998224, 10.00000000000000355, 10.00000000000000000 ) ) ;
#46 = PRODUCT_DEFINITION_SHAPE ( 'NONE', 'NONE',  #12 ) ;
#47 = CC_DESIGN_PERSON_AND_ORGANIZATION_ASSIGNMENT ( #6, #226, ( #31 ) ) ;
#48 = AXIS2_PLACEMENT_3D ( 'NONE', #82, #105, #109 ) ;
#49 =( NAMED_UNIT ( * ) SI_UNIT ( $, .STERADIAN. ) SOLID_ANGLE_UNIT ( ) );
#50 = CARTESIAN_POINT ( 'NONE',  ( 10.00000000000000178, 9.999999999999998224, -10.00000000000000000 ) ) ;
#51 = DATE_AND_TIME ( #272, #112 ) ;
#52 = VERTEX_POINT ( 'NONE', #199 ) ;
#53 = PERSON_AND_ORGANIZATION_ROLE ( 'design_owner' ) ;
#54 = EDGE_CURVE ( 'NONE', #52, #281, #8, .T. ) ;
#55 = CALENDAR_DATE ( 2020, 22, 12 ) ;
#56 = CARTESIAN_POINT ( 'NONE',  ( -9.999999999999998224, 10.00000000000000355, -10.00000000000000000 ) ) ;
#57 = ORIENTED_EDGE ( 'NONE', *, *, #67, .T. ) ;
#58 = LINE ( 'NONE', #204, #65 ) ;
#59 = AXIS2_PLACEMENT_3D ( 'NONE', #10, #106, #306 ) ;
#60 = EDGE_LOOP ( 'NONE', ( #159, #138, #145, #62 ) ) ;
#61 = APPROVAL ( #5, 'UNSPECIFIED' ) ;
#62 = ORIENTED_EDGE ( 'NONE', *, *, #233, .T. ) ;
#63 = PLANE ( 'NONE',  #132 ) ;
#64 = DIRECTION ( 'NONE',  ( 1.000000000000000000, -2.220446049250313081E-16, 0.000000000000000000 ) ) ;
#65 = VECTOR ( 'NONE', #202, 1000.000000000000000 ) ;
#66 = DIRECTION ( 'NONE',  ( -2.220446049250313081E-16, -1.000000000000000000, 0.000000000000000000 ) ) ;
#67 = EDGE_CURVE ( 'NONE', #309, #84, #153, .T. ) ;
#68 = DIRECTION ( 'NONE',  ( -0.000000000000000000, -0.000000000000000000, -1.000000000000000000 ) ) ;
#69 = DIRECTION ( 'NONE',  ( 0.000000000000000000, -0.000000000000000000, 1.000000000000000000 ) ) ;
#70 = APPROVAL_PERSON_ORGANIZATION ( #249, #61, #74 ) ;
#71 = DATE_TIME_ROLE ( 'classification_date' ) ;
#72 = ORIENTED_EDGE ( 'NONE', *, *, #230, .T. ) ;
#73 = PERSON_AND_ORGANIZATION ( #296, #302 ) ;
#74 = APPROVAL_ROLE ( '' ) ;
#75 = DIRECTION ( 'NONE',  ( 1.000000000000000000, -2.220446049250313081E-16, 0.000000000000000000 ) ) ;
#76 = CARTESIAN_POINT ( 'NONE',  ( 10.00000000000000000, 10.00000000000000000, -10.00000000000000000 ) ) ;
#77 = EDGE_CURVE ( 'NONE', #22, #281, #131, .T. ) ;
#78 = ORIENTED_EDGE ( 'NONE', *, *, #77, .T. ) ;
#79 = DIRECTION ( 'NONE',  ( -0.7071067811865475727, -0.7071067811865474617, 0.000000000000000000 ) ) ;
#80 = ORIENTED_EDGE ( 'NONE', *, *, #19, .T. ) ;
#81 = EDGE_CURVE ( 'NONE', #163, #22, #236, .T. ) ;
#82 = CARTESIAN_POINT ( 'NONE',  ( 10.00000000000000178, 9.999999999999998224, 10.00000000000000000 ) ) ;
#83 = AXIS2_PLACEMENT_3D ( 'NONE', #164, #66, #187 ) ;
#84 = VERTEX_POINT ( 'NONE', #152 ) ;
#85 = EDGE_CURVE ( 'NONE', #22, #113, #310, .T. ) ;
#86 = EDGE_LOOP ( 'NONE', ( #189, #182, #186, #263 ) ) ;
#87 = CARTESIAN_POINT ( 'NONE',  ( 0.000000000000000000, 0.000000000000000000, 0.000000000000000000 ) ) ;
#88 = DIRECTION ( 'NONE',  ( 0.000000000000000000, -0.000000000000000000, 1.000000000000000000 ) ) ;
#89 = PLANE ( 'NONE',  #143 ) ;
#90 = AXIS2_PLACEMENT_3D ( 'NONE', #195, #88, #242 ) ;
#91 = CARTESIAN_POINT ( 'NONE',  ( 10.00000000000000000, 10.00000000000000000, 10.00000000000000000 ) ) ;
#92 = EDGE_CURVE ( 'NONE', #163, #52, #39, .T. ) ;
#93 =( NAMED_UNIT ( * ) PLANE_ANGLE_UNIT ( ) SI_UNIT ( $, .RADIAN. ) );
#94 = LINE ( 'NONE', #114, #98 ) ;
#95 = PRODUCT ( 'BK7-LPBSC-20-1064', 'BK7-LPBSC-20-1064', '', ( #146 ) ) ;
#96 = APPLICATION_PROTOCOL_DEFINITION ( 'international standard', 'config_control_design', 1994, #305 ) ;
#97 = LINE ( 'NONE', #50, #137 ) ;
#98 = VECTOR ( 'NONE', #68, 1000.000000000000000 ) ;
#99 = COORDINATED_UNIVERSAL_TIME_OFFSET ( 8, 0, .AHEAD. ) ;
#100 = APPROVAL_DATE_TIME ( #301, #176 ) ;
#101 = SHAPE_DEFINITION_REPRESENTATION ( #46, #179 ) ;
#102 = DIRECTION ( 'NONE',  ( 0.000000000000000000, -0.000000000000000000, 1.000000000000000000 ) ) ;
#103 = CC_DESIGN_PERSON_AND_ORGANIZATION_ASSIGNMENT ( #26, #225, ( #12 ) ) ;
#104 = LOCAL_TIME ( 11, 12, 37.00000000000000000, #3 ) ;
#105 = DIRECTION ( 'NONE',  ( 0.7071067811865474617, -0.7071067811865475727, 0.000000000000000000 ) ) ;
#106 = DIRECTION ( 'NONE',  ( -1.000000000000000000, 0.000000000000000000, 0.000000000000000000 ) ) ;
#107 = EDGE_CURVE ( 'NONE', #136, #217, #234, .T. ) ;
#108 = VECTOR ( 'NONE', #75, 1000.000000000000000 ) ;
#109 = DIRECTION ( 'NONE',  ( 0.7071067811865475727, 0.7071067811865474617, 0.000000000000000000 ) ) ;
#110 = DIRECTION ( 'NONE',  ( 2.220446049250313081E-16, 1.000000000000000000, 0.000000000000000000 ) ) ;
#111 = EDGE_LOOP ( 'NONE', ( #206, #161, #154 ) ) ;
#112 = LOCAL_TIME ( 11, 12, 37.00000000000000000, #201 ) ;
#113 = VERTEX_POINT ( 'NONE', #178 ) ;
#114 = CARTESIAN_POINT ( 'NONE',  ( 10.00000000000000178, -10.00000000000000000, 10.00000000000000000 ) ) ;
#115 = LINE ( 'NONE', #21, #184 ) ;
#116 = DIRECTION ( 'NONE',  ( 0.000000000000000000, 0.000000000000000000, 1.000000000000000000 ) ) ;
#117 = DIRECTION ( 'NONE',  ( 1.000000000000000000, 0.000000000000000000, 0.000000000000000000 ) ) ;
#118 = ORIENTED_EDGE ( 'NONE', *, *, #129, .T. ) ;
#119 = VECTOR ( 'NONE', #208, 1000.000000000000000 ) ;
#120 = CARTESIAN_POINT ( 'NONE',  ( -10.00000000000000178, -9.999999999999996447, 10.00000000000000000 ) ) ;
#121 = LINE ( 'NONE', #91, #14 ) ;
#122 = EDGE_CURVE ( 'NONE', #217, #313, #308, .T. ) ;
#123 = PERSON_AND_ORGANIZATION ( #296, #302 ) ;
#124 = CARTESIAN_POINT ( 'NONE',  ( -9.999999999999998224, -10.00000000000000000, -10.00000000000000000 ) ) ;
#125 = CC_DESIGN_DATE_AND_TIME_ASSIGNMENT ( #223, #24, ( #12 ) ) ;
#126 = CARTESIAN_POINT ( 'NONE',  ( 10.00000000000000178, 9.999999999999998224, -10.00000000000000000 ) ) ;
#127 = SECURITY_CLASSIFICATION_LEVEL ( 'unclassified' ) ;
#128 = ADVANCED_FACE ( 'NONE', ( #135 ), #280, .F. ) ;
#129 = EDGE_CURVE ( 'NONE', #84, #136, #58, .T. ) ;
#130 = CARTESIAN_POINT ( 'NONE',  ( 10.00000000000000000, 10.00000000000000000, 10.00000000000000000 ) ) ;
#131 = LINE ( 'NONE', #256, #258 ) ;
#132 = AXIS2_PLACEMENT_3D ( 'NONE', #284, #158, #117 ) ;
#133 = DIRECTION ( 'NONE',  ( -0.000000000000000000, -0.000000000000000000, -1.000000000000000000 ) ) ;
#134 = CC_DESIGN_PERSON_AND_ORGANIZATION_ASSIGNMENT ( #4, #53, ( #95 ) ) ;
#135 = FACE_OUTER_BOUND ( 'NONE', #86, .T. ) ;
#136 = VERTEX_POINT ( 'NONE', #130 ) ;
#137 = VECTOR ( 'NONE', #192, 1000.000000000000000 ) ;
#138 = ORIENTED_EDGE ( 'NONE', *, *, #107, .F. ) ;
#139 = LINE ( 'NONE', #45, #147 ) ;
#140 = FACE_OUTER_BOUND ( 'NONE', #273, .T. ) ;
#141 = LINE ( 'NONE', #162, #220 ) ;
#142 = ORIENTED_EDGE ( 'NONE', *, *, #17, .F. ) ;
#143 = AXIS2_PLACEMENT_3D ( 'NONE', #148, #102, #227 ) ;
#144 = APPROVAL_STATUS ( 'not_yet_approved' ) ;
#145 = ORIENTED_EDGE ( 'NONE', *, *, #7, .T. ) ;
#146 = MECHANICAL_CONTEXT ( 'NONE', #207, 'mechanical' ) ;
#147 = VECTOR ( 'NONE', #216, 1000.000000000000000 ) ;
#148 = CARTESIAN_POINT ( 'NONE',  ( 0.000000000000000000, 0.000000000000000000, -10.00000000000000000 ) ) ;
#149 = COORDINATED_UNIVERSAL_TIME_OFFSET ( 8, 0, .AHEAD. ) ;
#150 = CLOSED_SHELL ( 'NONE', ( #205, #34, #238, #37, #40 ) ) ;
#151 = VECTOR ( 'NONE', #185, 1000.000000000000000 ) ;
#152 = CARTESIAN_POINT ( 'NONE',  ( -9.999999999999998224, 10.00000000000000355, 10.00000000000000000 ) ) ;
#153 = LINE ( 'NONE', #283, #29 ) ;
#154 = ORIENTED_EDGE ( 'NONE', *, *, #173, .T. ) ;
#155 = APPROVAL_PERSON_ORGANIZATION ( #198, #176, #248 ) ;
#156 = CARTESIAN_POINT ( 'NONE',  ( 10.00000000000000178, 9.999999999999998224, 10.00000000000000000 ) ) ;
#157 = CARTESIAN_POINT ( 'NONE',  ( 10.00000000000000000, 10.00000000000000000, 10.00000000000000000 ) ) ;
#158 = DIRECTION ( 'NONE',  ( -0.000000000000000000, 0.000000000000000000, 1.000000000000000000 ) ) ;
#159 = ORIENTED_EDGE ( 'NONE', *, *, #122, .F. ) ;
#160 = FACE_OUTER_BOUND ( 'NONE', #180, .T. ) ;
#161 = ORIENTED_EDGE ( 'NONE', *, *, #293, .T. ) ;
#162 = CARTESIAN_POINT ( 'NONE',  ( -10.00000000000000178, -9.999999999999996447, -10.00000000000000000 ) ) ;
#163 = VERTEX_POINT ( 'NONE', #156 ) ;
#164 = CARTESIAN_POINT ( 'NONE',  ( 10.00000000000000000, 10.00000000000000000, 10.00000000000000000 ) ) ;
#165 = EDGE_LOOP ( 'NONE', ( #285, #214, #260, #80 ) ) ;
#166 = CC_DESIGN_APPROVAL ( #276, ( #253 ) ) ;
#167 = CARTESIAN_POINT ( 'NONE',  ( -10.00000000000000178, -9.999999999999996447, 10.00000000000000000 ) ) ;
#168 = APPROVAL_PERSON_ORGANIZATION ( #123, #276, #274 ) ;
#169 = APPROVAL_STATUS ( 'not_yet_approved' ) ;
#170 = DIRECTION ( 'NONE',  ( -0.7071067811865475727, -0.7071067811865474617, 0.000000000000000000 ) ) ;
#171 = PERSON_AND_ORGANIZATION ( #296, #302 ) ;
#172 = PERSON_AND_ORGANIZATION_ROLE ( 'creator' ) ;
#173 = EDGE_CURVE ( 'NONE', #221, #217, #181, .T. ) ;
#174 = AXIS2_PLACEMENT_3D ( 'NONE', #319, #42, #264 ) ;
#175 = DATE_AND_TIME ( #55, #213 ) ;
#176 = APPROVAL ( #144, 'UNSPECIFIED' ) ;
#177 = FACE_OUTER_BOUND ( 'NONE', #60, .T. ) ;
#178 = CARTESIAN_POINT ( 'NONE',  ( 10.00000000000000178, -10.00000000000000000, 10.00000000000000000 ) ) ;
#179 = ADVANCED_BREP_SHAPE_REPRESENTATION ( 'BK7-LPBSC-20-1064', ( #268, #197, #200 ), #312 ) ;
#180 = EDGE_LOOP ( 'NONE', ( #257, #288, #142 ) ) ;
#181 = LINE ( 'NONE', #304, #108 ) ;
#182 = ORIENTED_EDGE ( 'NONE', *, *, #77, .F. ) ;
#183 = EDGE_LOOP ( 'NONE', ( #265, #320, #72 ) ) ;
#184 = VECTOR ( 'NONE', #315, 1000.000000000000000 ) ;
#185 = DIRECTION ( 'NONE',  ( -0.7071067811865475727, -0.7071067811865474617, 0.000000000000000000 ) ) ;
#186 = ORIENTED_EDGE ( 'NONE', *, *, #81, .F. ) ;
#187 = DIRECTION ( 'NONE',  ( 0.000000000000000000, 0.000000000000000000, 1.000000000000000000 ) ) ;
#188 = CARTESIAN_POINT ( 'NONE',  ( 10.00000000000000178, 9.999999999999998224, 10.00000000000000000 ) ) ;
#189 = ORIENTED_EDGE ( 'NONE', *, *, #54, .T. ) ;
#190 = EDGE_LOOP ( 'NONE', ( #235, #241, #267, #78 ) ) ;
#191 = DIRECTION ( 'NONE',  ( 2.220446049250313081E-16, 1.000000000000000000, 0.000000000000000000 ) ) ;
#192 = DIRECTION ( 'NONE',  ( -0.000000000000000000, 1.000000000000000000, -0.000000000000000000 ) ) ;
#193 = CARTESIAN_POINT ( 'NONE',  ( -9.999999999999998224, -10.00000000000000000, 10.00000000000000000 ) ) ;
#194 = DATE_AND_TIME ( #1, #311 ) ;
#195 = CARTESIAN_POINT ( 'NONE',  ( 0.000000000000000000, 0.000000000000000000, 10.00000000000000000 ) ) ;
#196 = APPROVAL_DATE_TIME ( #194, #276 ) ;
#197 = MANIFOLD_SOLID_BREP ( '¾µÏ', #150 ) ;
#198 = PERSON_AND_ORGANIZATION ( #296, #302 ) ;
#199 = CARTESIAN_POINT ( 'NONE',  ( 10.00000000000000178, 9.999999999999998224, -10.00000000000000000 ) ) ;
#200 = AXIS2_PLACEMENT_3D ( 'NONE', #87, #300, #297 ) ;
#201 = COORDINATED_UNIVERSAL_TIME_OFFSET ( 8, 0, .AHEAD. ) ;
#202 = DIRECTION ( 'NONE',  ( 1.000000000000000000, -2.220446049250313081E-16, 0.000000000000000000 ) ) ;
#203 = VECTOR ( 'NONE', #133, 1000.000000000000000 ) ;
#204 = CARTESIAN_POINT ( 'NONE',  ( 10.00000000000000000, 10.00000000000000000, 10.00000000000000000 ) ) ;
#205 = ADVANCED_FACE ( 'NONE', ( #177 ), #277, .F. ) ;
#206 = ORIENTED_EDGE ( 'NONE', *, *, #122, .T. ) ;
#207 = APPLICATION_CONTEXT ( 'configuration controlled 3d designs of mechanical parts and assemblies' ) ;
#208 = DIRECTION ( 'NONE',  ( -0.000000000000000000, 0.000000000000000000, -1.000000000000000000 ) ) ;
#209 = ADVANCED_FACE ( 'NONE', ( #279 ), #229, .F. ) ;
#210 = ORIENTED_EDGE ( 'NONE', *, *, #173, .F. ) ;
#211 = CARTESIAN_POINT ( 'NONE',  ( 10.00000000000000178, 9.999999999999998224, 10.00000000000000000 ) ) ;
#212 = CLOSED_SHELL ( 'NONE', ( #128, #32, #209, #250, #287 ) ) ;
#213 = LOCAL_TIME ( 11, 12, 37.00000000000000000, #149 ) ;
#214 = ORIENTED_EDGE ( 'NONE', *, *, #92, .F. ) ;
#215 = FACE_OUTER_BOUND ( 'NONE', #190, .T. ) ;
#216 = DIRECTION ( 'NONE',  ( -0.000000000000000000, 0.000000000000000000, -1.000000000000000000 ) ) ;
#217 = VERTEX_POINT ( 'NONE', #76 ) ;
#218 = UNCERTAINTY_MEASURE_WITH_UNIT (LENGTH_MEASURE( 1.000000000000000082E-05 ), #291, 'distance_accuracy_value', 'NONE');
#219 = CARTESIAN_POINT ( 'NONE',  ( -9.999999999999998224, -10.00000000000000000, -10.00000000000000000 ) ) ;
#220 = VECTOR ( 'NONE', #191, 1000.000000000000000 ) ;
#221 = VERTEX_POINT ( 'NONE', #56 ) ;
#222 = CARTESIAN_POINT ( 'NONE',  ( 10.00000000000000178, -10.00000000000000000, -10.00000000000000000 ) ) ;
#223 = DATE_AND_TIME ( #28, #9 ) ;
#224 = FACE_OUTER_BOUND ( 'NONE', #15, .T. ) ;
#225 = PERSON_AND_ORGANIZATION_ROLE ( 'creator' ) ;
#226 = PERSON_AND_ORGANIZATION_ROLE ( 'classification_officer' ) ;
#227 = DIRECTION ( 'NONE',  ( 2.220446049250313081E-16, 1.000000000000000000, 0.000000000000000000 ) ) ;
#228 = AXIS2_PLACEMENT_3D ( 'NONE', #33, #259, #307 ) ;
#229 = PLANE ( 'NONE',  #59 ) ;
#230 = EDGE_CURVE ( 'NONE', #113, #163, #254, .T. ) ;
#231 = DIRECTION ( 'NONE',  ( 1.000000000000000000, 0.000000000000000000, 0.000000000000000000 ) ) ;
#232 = AXIS2_PLACEMENT_3D ( 'NONE', #247, #314, #69 ) ;
#233 = EDGE_CURVE ( 'NONE', #309, #313, #115, .T. ) ;
#234 = LINE ( 'NONE', #157, #119 ) ;
#235 = ORIENTED_EDGE ( 'NONE', *, *, #17, .T. ) ;
#236 = LINE ( 'NONE', #211, #151 ) ;
#237 = EDGE_CURVE ( 'NONE', #84, #221, #139, .T. ) ;
#238 = ADVANCED_FACE ( 'NONE', ( #286 ), #269, .F. ) ;
#239 = VECTOR ( 'NONE', #44, 1000.000000000000000 ) ;
#240 = PLANE ( 'NONE',  #174 ) ;
#241 = ORIENTED_EDGE ( 'NONE', *, *, #19, .F. ) ;
#242 = DIRECTION ( 'NONE',  ( 2.220446049250313081E-16, 1.000000000000000000, 0.000000000000000000 ) ) ;
#243 = EDGE_LOOP ( 'NONE', ( #210, #245, #118, #43 ) ) ;
#244 = CARTESIAN_POINT ( 'NONE',  ( -10.00000000000000178, -9.999999999999996447, -10.00000000000000000 ) ) ;
#245 = ORIENTED_EDGE ( 'NONE', *, *, #237, .F. ) ;
#246 = CALENDAR_DATE ( 2020, 22, 12 ) ;
#247 = CARTESIAN_POINT ( 'NONE',  ( -9.999999999999998224, -10.00000000000000000, 10.00000000000000000 ) ) ;
#248 = APPROVAL_ROLE ( '' ) ;
#249 = PERSON_AND_ORGANIZATION ( #296, #302 ) ;
#250 = ADVANCED_FACE ( 'NONE', ( #294 ), #63, .T. ) ;
#251 = COORDINATED_UNIVERSAL_TIME_OFFSET ( 8, 0, .AHEAD. ) ;
#252 = DIRECTION ( 'NONE',  ( -0.7071067811865475727, -0.7071067811865474617, 0.000000000000000000 ) ) ;
#253 = PRODUCT_DEFINITION_FORMATION_WITH_SPECIFIED_SOURCE ( 'ANY', '', #95, .NOT_KNOWN. ) ;
#254 = LINE ( 'NONE', #188, #289 ) ;
#255 = CC_DESIGN_DATE_AND_TIME_ASSIGNMENT ( #175, #71, ( #31 ) ) ;
#256 = CARTESIAN_POINT ( 'NONE',  ( -9.999999999999998224, -10.00000000000000000, 10.00000000000000000 ) ) ;
#257 = ORIENTED_EDGE ( 'NONE', *, *, #54, .F. ) ;
#258 = VECTOR ( 'NONE', #38, 1000.000000000000000 ) ;
#259 = DIRECTION ( 'NONE',  ( -0.7071067811865474617, 0.7071067811865475727, 0.000000000000000000 ) ) ;
#260 = ORIENTED_EDGE ( 'NONE', *, *, #230, .F. ) ;
#261 = CARTESIAN_POINT ( 'NONE',  ( 10.00000000000000000, 10.00000000000000000, -10.00000000000000000 ) ) ;
#262 = APPLICATION_PROTOCOL_DEFINITION ( 'international standard', 'config_control_design', 1994, #207 ) ;
#263 = ORIENTED_EDGE ( 'NONE', *, *, #92, .T. ) ;
#264 = DIRECTION ( 'NONE',  ( 1.000000000000000000, 0.000000000000000000, 0.000000000000000000 ) ) ;
#265 = ORIENTED_EDGE ( 'NONE', *, *, #81, .T. ) ;
#266 = DIRECTION ( 'NONE',  ( -0.000000000000000000, 1.000000000000000000, -0.000000000000000000 ) ) ;
#267 = ORIENTED_EDGE ( 'NONE', *, *, #85, .F. ) ;
#268 = MANIFOLD_SOLID_BREP ( 'Í¹Ì¨-À', #212 ) ;
#269 = PLANE ( 'NONE',  #83 ) ;
#270 = DESIGN_CONTEXT ( 'detailed design', #305, 'design' ) ;
#271 = ORIENTED_EDGE ( 'NONE', *, *, #237, .T. ) ;
#272 = CALENDAR_DATE ( 2020, 22, 12 ) ;
#273 = EDGE_LOOP ( 'NONE', ( #25, #36, #57, #271 ) ) ;
#274 = APPROVAL_ROLE ( '' ) ;
#275 = VECTOR ( 'NONE', #231, 1000.000000000000000 ) ;
#276 = APPROVAL ( #169, 'UNSPECIFIED' ) ;
#277 = PLANE ( 'NONE',  #228 ) ;
#278 = CARTESIAN_POINT ( 'NONE',  ( -9.999999999999998224, -10.00000000000000000, 10.00000000000000000 ) ) ;
#279 = FACE_OUTER_BOUND ( 'NONE', #165, .T. ) ;
#280 = PLANE ( 'NONE',  #48 ) ;
#281 = VERTEX_POINT ( 'NONE', #219 ) ;
#282 = VECTOR ( 'NONE', #79, 1000.000000000000000 ) ;
#283 = CARTESIAN_POINT ( 'NONE',  ( -10.00000000000000178, -9.999999999999996447, 10.00000000000000000 ) ) ;
#284 = CARTESIAN_POINT ( 'NONE',  ( 0.000000000000000000, 0.000000000000000000, 10.00000000000000000 ) ) ;
#285 = ORIENTED_EDGE ( 'NONE', *, *, #27, .T. ) ;
#286 = FACE_OUTER_BOUND ( 'NONE', #243, .T. ) ;
#287 = ADVANCED_FACE ( 'NONE', ( #160 ), #240, .F. ) ;
#288 = ORIENTED_EDGE ( 'NONE', *, *, #27, .F. ) ;
#289 = VECTOR ( 'NONE', #266, 1000.000000000000000 ) ;
#290 = PRODUCT_RELATED_PRODUCT_CATEGORY ( 'detail', '', ( #95 ) ) ;
#291 =( LENGTH_UNIT ( ) NAMED_UNIT ( * ) SI_UNIT ( .MILLI., .METRE. ) );
#292 = PLANE ( 'NONE',  #35 ) ;
#293 = EDGE_CURVE ( 'NONE', #313, #221, #141, .T. ) ;
#294 = FACE_OUTER_BOUND ( 'NONE', #183, .T. ) ;
#295 = PLANE ( 'NONE',  #232 ) ;
#296 = PERSON ( 'UNSPECIFIED', 'UNSPECIFIED', 'UNSPECIFIED', ('UNSPECIFIED'), ('UNSPECIFIED'), ('UNSPECIFIED') ) ;
#297 = DIRECTION ( 'NONE',  ( 1.000000000000000000, 0.000000000000000000, 0.000000000000000000 ) ) ;
#298 = CC_DESIGN_APPROVAL ( #61, ( #31 ) ) ;
#299 = PERSON_AND_ORGANIZATION_ROLE ( 'design_supplier' ) ;
#300 = DIRECTION ( 'NONE',  ( 0.000000000000000000, 0.000000000000000000, 1.000000000000000000 ) ) ;
#301 = DATE_AND_TIME ( #246, #104 ) ;
#302 = ORGANIZATION ( 'UNSPECIFIED', 'UNSPECIFIED', '' ) ;
#303 = APPROVAL_DATE_TIME ( #51, #61 ) ;
#304 = CARTESIAN_POINT ( 'NONE',  ( 10.00000000000000000, 10.00000000000000000, -10.00000000000000000 ) ) ;
#305 = APPLICATION_CONTEXT ( 'configuration controlled 3d designs of mechanical parts and assemblies' ) ;
#306 = DIRECTION ( 'NONE',  ( 0.000000000000000000, 0.000000000000000000, 1.000000000000000000 ) ) ;
#307 = DIRECTION ( 'NONE',  ( 0.7071067811865475727, 0.7071067811865474617, 0.000000000000000000 ) ) ;
#308 = LINE ( 'NONE', #261, #282 ) ;
#309 = VERTEX_POINT ( 'NONE', #120 ) ;
#310 = LINE ( 'NONE', #278, #275 ) ;
#311 = LOCAL_TIME ( 11, 12, 37.00000000000000000, #99 ) ;
#312 =( GEOMETRIC_REPRESENTATION_CONTEXT ( 3 ) GLOBAL_UNCERTAINTY_ASSIGNED_CONTEXT ( ( #218 ) ) GLOBAL_UNIT_ASSIGNED_CONTEXT ( ( #291, #93, #49 ) ) REPRESENTATION_CONTEXT ( 'NONE', 'WORKASPACE' ) );
#313 = VERTEX_POINT ( 'NONE', #244 ) ;
#314 = DIRECTION ( 'NONE',  ( 0.000000000000000000, 1.000000000000000000, 0.000000000000000000 ) ) ;
#315 = DIRECTION ( 'NONE',  ( -0.000000000000000000, 0.000000000000000000, -1.000000000000000000 ) ) ;
#316 = CC_DESIGN_PERSON_AND_ORGANIZATION_ASSIGNMENT ( #73, #299, ( #253 ) ) ;
#317 = ORIENTED_EDGE ( 'NONE', *, *, #67, .F. ) ;
#318 = VECTOR ( 'NONE', #252, 1000.000000000000000 ) ;
#319 = CARTESIAN_POINT ( 'NONE',  ( 0.000000000000000000, 0.000000000000000000, -10.00000000000000000 ) ) ;
#320 = ORIENTED_EDGE ( 'NONE', *, *, #85, .T. ) ;
#321 = LINE ( 'NONE', #124, #239 ) ;
ENDSEC;
END-ISO-10303-21;
